U Got Nothin On Me

Demi Lovato

G
Add To
Add To
-------------------------------------------------------------------------------
U GOT NOTHIN' ON ME - Demi Lovato
-------------------------------------------------------------------------------
Tabbed by: Krista
Email: leavethepieces@gmail.com
Tuning: Standard
Chords:
e|-3---0---2---0---3---0-|
B|-3---1---3---1---4---0-|
G|-0---2---2---0---5---0-|
D|-0---2---0---2---5---2-|
A|-2---0---x---3---3---2-|
E|-3---x---x---x---3---0-|
Login to View Full Song
X

Song & Display Settings

A B C D E F G
Arial
Lucida
Segoe
Tahoma
Verdana
Times
Mono-Space
10
10
10
Hide Chords
Hide Lyrics
Nashville
Modern
ChordPro