Everybody Knows

John Legend

G
Add To
Add To
Everybody Knows
John Legend
e|---------------------------------------------------------|
B|--------------------------------------3-----3-----3------|
G|--------------4-----4-----4-----------4-----4-----4------|
D|--------------5-----5-----5--------4--4-----4-----4------|
A|-----------5--5-----5-----5-----2--------2-----2-----2---|
E|--------3-------3-----3-----3----------------------------|
---------------------------------------------------------|
--------------1-----1----1-----------0---0----0----------|
--------------0-----0----0-----------0---0----0----------|
-----------2-----------------------------2----2----------|
--------3-------3-----3----3------2----------------------|
--------------------------------0------0----0----0-------|
Login to View Full Song
X

Song & Display Settings

A B C D E F G
Arial
Lucida
Segoe
Tahoma
Verdana
Times
Mono-Space
10
10
10
Hide Chords
Hide Lyrics
Nashville
Modern
ChordPro