I Love You Love

John Legend

Add To
Add To
By mraz27fan

not sure about everything being right but you can get the jest of it this is tunnel of
by dire straits listened to it yesterday and noticed the similarity

thanks to tzitron@loria.fr (Vincent Tzitron)who posted this on dire straits

---------------------------------------------------------------------|
-10^11^10----------10-11-10--------------10-13-10-11--------------10-|
------------12--------------12-10-12------------------------10-12----|
------------14---------------------------------------12--------------|
---------------------------------------------------------------------|
---------------------------------------------------------------------|

----------------------------------------------------------------------|
-10^11^10---10(11)10---10-11-10---------------------10-11-10----------|
X

Song & Display Settings

A B C D E F G
Arial
Lucida
Segoe
Tahoma
Verdana
Times
Mono-Space
10
10
10
Hide Chords
Hide Lyrics
Nashville
Modern
ChordPro