No Other Love

John Legend

Ab
Add To
Add To
Hey everybody! this is my first tab. I hope you guys like it.
Reggae feel
e----------------------------------------------------------|
b---------------------------------------------------13--11-|
g-----10--12--13--12--10------12--13--12-------------------|
d--10---------------------13----------------13--11--10--8--|
a----------------------------------------------------------|
e---------------------------------------------------------|
b---------------------------------------------------------|
g---------------------------------------------------------|
d----------10--11--10------13-----------------------------|
a--11--13--------------13---------------------------------|
No other love
Login to View Full Song
X

Song & Display Settings

A B C D E F G
Arial
Lucida
Segoe
Tahoma
Verdana
Times
Mono-Space
10
10
10
Hide Chords
Hide Lyrics
Nashville
Modern
ChordPro